ISO-10303-21;
HEADER;
/* Generated by software containing ST-Developer
 * from STEP Tools, Inc. (www.steptools.com) 
 */
/* OPTION: strings as raw bytes, not using required /X/ escapes */

FILE_DESCRIPTION(
/* description */ ('Unknown'),
/* implementation_level */ '2;1');

FILE_NAME(
/* name */ 'glass 4.0in',
/* time_stamp */ '2023-07-31T14:43:49-04:00',
/* author */ ('Unknown'),
/* organization */ ('Unknown'),
/* preprocessor_version */ 'ST-DEVELOPER v16.7',
/* originating_system */ 'Solid Edge',
/* authorisation */ 'Unknown');

FILE_SCHEMA (('AUTOMOTIVE_DESIGN {1 0 10303 214 3 1 1}'));
ENDSEC;

DATA;
#10=PROPERTY_DEFINITION_REPRESENTATION(#14,#12);
#11=PROPERTY_DEFINITION_REPRESENTATION(#15,#13);
#12=REPRESENTATION('',(#16),#187);
#13=REPRESENTATION('',(#17),#187);
#14=PROPERTY_DEFINITION('pmi validation property','',#192);
#15=PROPERTY_DEFINITION('pmi validation property','',#192);
#16=VALUE_REPRESENTATION_ITEM('number of annotations',COUNT_MEASURE(0.));
#17=VALUE_REPRESENTATION_ITEM('number of views',COUNT_MEASURE(0.));
#18=SHAPE_REPRESENTATION_RELATIONSHIP('','',#125,#19);
#19=ADVANCED_BREP_SHAPE_REPRESENTATION('',(#123),#187);
#20=ORIENTED_EDGE('',*,*,#44,.F.);
#21=ORIENTED_EDGE('',*,*,#45,.F.);
#22=ORIENTED_EDGE('',*,*,#46,.T.);
#23=ORIENTED_EDGE('',*,*,#47,.T.);
#24=ORIENTED_EDGE('',*,*,#48,.F.);
#25=ORIENTED_EDGE('',*,*,#47,.F.);
#26=ORIENTED_EDGE('',*,*,#49,.T.);
#27=ORIENTED_EDGE('',*,*,#50,.T.);
#28=ORIENTED_EDGE('',*,*,#51,.F.);
#29=ORIENTED_EDGE('',*,*,#50,.F.);
#30=ORIENTED_EDGE('',*,*,#52,.T.);
#31=ORIENTED_EDGE('',*,*,#53,.T.);
#32=ORIENTED_EDGE('',*,*,#54,.F.);
#33=ORIENTED_EDGE('',*,*,#53,.F.);
#34=ORIENTED_EDGE('',*,*,#55,.T.);
#35=ORIENTED_EDGE('',*,*,#45,.T.);
#36=ORIENTED_EDGE('',*,*,#46,.F.);
#37=ORIENTED_EDGE('',*,*,#55,.F.);
#38=ORIENTED_EDGE('',*,*,#52,.F.);
#39=ORIENTED_EDGE('',*,*,#49,.F.);
#40=ORIENTED_EDGE('',*,*,#44,.T.);
#41=ORIENTED_EDGE('',*,*,#48,.T.);
#42=ORIENTED_EDGE('',*,*,#51,.T.);
#43=ORIENTED_EDGE('',*,*,#54,.T.);
#44=EDGE_CURVE('',#56,#57,#64,.T.);
#45=EDGE_CURVE('',#58,#56,#65,.T.);
#46=EDGE_CURVE('',#58,#59,#66,.T.);
#47=EDGE_CURVE('',#59,#57,#67,.T.);
#48=EDGE_CURVE('',#57,#60,#68,.T.);
#49=EDGE_CURVE('',#59,#61,#69,.T.);
#50=EDGE_CURVE('',#61,#60,#70,.T.);
#51=EDGE_CURVE('',#60,#62,#71,.T.);
#52=EDGE_CURVE('',#61,#63,#72,.T.);
#53=EDGE_CURVE('',#63,#62,#73,.T.);
#54=EDGE_CURVE('',#62,#56,#74,.T.);
#55=EDGE_CURVE('',#63,#58,#75,.T.);
#56=VERTEX_POINT('',#162);
#57=VERTEX_POINT('',#163);
#58=VERTEX_POINT('',#165);
#59=VERTEX_POINT('',#167);
#60=VERTEX_POINT('',#171);
#61=VERTEX_POINT('',#173);
#62=VERTEX_POINT('',#177);
#63=VERTEX_POINT('',#179);
#64=LINE('',#161,#76);
#65=LINE('',#164,#77);
#66=LINE('',#166,#78);
#67=LINE('',#168,#79);
#68=LINE('',#170,#80);
#69=LINE('',#172,#81);
#70=LINE('',#174,#82);
#71=LINE('',#176,#83);
#72=LINE('',#178,#84);
#73=LINE('',#180,#85);
#74=LINE('',#182,#86);
#75=LINE('',#183,#87);
#76=VECTOR('',#137,1000.);
#77=VECTOR('',#138,1000.);
#78=VECTOR('',#139,1000.);
#79=VECTOR('',#140,1000.);
#80=VECTOR('',#143,1000.);
#81=VECTOR('',#144,1000.);
#82=VECTOR('',#145,1000.);
#83=VECTOR('',#148,1000.);
#84=VECTOR('',#149,1000.);
#85=VECTOR('',#150,1000.);
#86=VECTOR('',#153,1000.);
#87=VECTOR('',#154,1000.);
#88=EDGE_LOOP('',(#20,#21,#22,#23));
#89=EDGE_LOOP('',(#24,#25,#26,#27));
#90=EDGE_LOOP('',(#28,#29,#30,#31));
#91=EDGE_LOOP('',(#32,#33,#34,#35));
#92=EDGE_LOOP('',(#36,#37,#38,#39));
#93=EDGE_LOOP('',(#40,#41,#42,#43));
#94=FACE_BOUND('',#88,.T.);
#95=FACE_BOUND('',#89,.T.);
#96=FACE_BOUND('',#90,.T.);
#97=FACE_BOUND('',#91,.T.);
#98=FACE_BOUND('',#92,.T.);
#99=FACE_BOUND('',#93,.T.);
#100=PLANE('',#127);
#101=PLANE('',#128);
#102=PLANE('',#129);
#103=PLANE('',#130);
#104=PLANE('',#131);
#105=PLANE('',#132);
#106=ADVANCED_FACE('',(#94),#100,.T.);
#107=ADVANCED_FACE('',(#95),#101,.T.);
#108=ADVANCED_FACE('',(#96),#102,.T.);
#109=ADVANCED_FACE('',(#97),#103,.T.);
#110=ADVANCED_FACE('',(#98),#104,.F.);
#111=ADVANCED_FACE('',(#99),#105,.T.);
#112=CLOSED_SHELL('',(#106,#107,#108,#109,#110,#111));
#113=STYLED_ITEM('',(#114),#123);
#114=PRESENTATION_STYLE_ASSIGNMENT((#115));
#115=SURFACE_STYLE_USAGE(.BOTH.,#116);
#116=SURFACE_SIDE_STYLE('',(#119,#117));
#117=SURFACE_STYLE_RENDERING_WITH_PROPERTIES(.CONSTANT_SHADING.,#122,(#118));
#118=SURFACE_STYLE_TRANSPARENT(0.699999988079071);
#119=SURFACE_STYLE_FILL_AREA(#120);
#120=FILL_AREA_STYLE('',(#121));
#121=FILL_AREA_STYLE_COLOUR('',#122);
#122=COLOUR_RGB('',0.444705873727798,0.599117696285248,0.74117648601532);
#123=MANIFOLD_SOLID_BREP('',#112);
#124=SHAPE_DEFINITION_REPRESENTATION(#192,#125);
#125=SHAPE_REPRESENTATION('glass 4.0in',(#126),#187);
#126=AXIS2_PLACEMENT_3D('',#159,#133,#134);
#127=AXIS2_PLACEMENT_3D('',#160,#135,#136);
#128=AXIS2_PLACEMENT_3D('',#169,#141,#142);
#129=AXIS2_PLACEMENT_3D('',#175,#146,#147);
#130=AXIS2_PLACEMENT_3D('',#181,#151,#152);
#131=AXIS2_PLACEMENT_3D('',#184,#155,#156);
#132=AXIS2_PLACEMENT_3D('',#185,#157,#158);
#133=DIRECTION('',(0.,0.,1.));
#134=DIRECTION('',(1.,0.,0.));
#135=DIRECTION('',(1.,0.,0.));
#136=DIRECTION('',(0.,0.,-1.));
#137=DIRECTION('',(0.,-1.,0.));
#138=DIRECTION('',(0.,0.,-1.));
#139=DIRECTION('',(0.,-1.,0.));
#140=DIRECTION('',(0.,0.,-1.));
#141=DIRECTION('',(1.18209436182406E-16,-1.,0.));
#142=DIRECTION('',(1.,1.18209436182406E-16,0.));
#143=DIRECTION('',(-1.,-1.18209436182406E-16,0.));
#144=DIRECTION('',(-1.,-1.18209436182406E-16,0.));
#145=DIRECTION('',(0.,0.,-1.));
#146=DIRECTION('',(-1.,-2.42533865917764E-16,0.));
#147=DIRECTION('',(2.42533865917764E-16,-1.,0.));
#148=DIRECTION('',(-2.42533865917764E-16,1.,0.));
#149=DIRECTION('',(-2.42533865917764E-16,1.,0.));
#150=DIRECTION('',(0.,0.,-1.));
#151=DIRECTION('',(-1.18209436182406E-16,1.,0.));
#152=DIRECTION('',(-1.,-1.18209436182406E-16,0.));
#153=DIRECTION('',(1.,1.18209436182406E-16,0.));
#154=DIRECTION('',(1.,1.18209436182406E-16,0.));
#155=DIRECTION('',(0.,0.,-1.));
#156=DIRECTION('',(-1.,0.,0.));
#157=DIRECTION('',(0.,0.,-1.));
#158=DIRECTION('',(-1.,0.,0.));
#159=CARTESIAN_POINT('',(0.,0.,0.));
#160=CARTESIAN_POINT('',(29.35,39.68,4.44053760670065));
#161=CARTESIAN_POINT('',(29.35,39.68,4.01561917325309));
#162=CARTESIAN_POINT('',(29.35,39.68,4.01561917325309));
#163=CARTESIAN_POINT('',(29.35,-46.15,4.01561917325309));
#164=CARTESIAN_POINT('',(29.35,39.68,4.44053760670065));
#165=CARTESIAN_POINT('',(29.35,39.68,4.44053760670065));
#166=CARTESIAN_POINT('',(29.35,39.68,4.44053760670065));
#167=CARTESIAN_POINT('',(29.35,-46.15,4.44053760670065));
#168=CARTESIAN_POINT('',(29.35,-46.15,4.44053760670065));
#169=CARTESIAN_POINT('',(29.35,-46.15,4.44053760670065));
#170=CARTESIAN_POINT('',(29.35,-46.15,4.01561917325309));
#171=CARTESIAN_POINT('',(-29.35,-46.15,4.01561917325309));
#172=CARTESIAN_POINT('',(29.35,-46.15,4.44053760670065));
#173=CARTESIAN_POINT('',(-29.35,-46.15,4.44053760670065));
#174=CARTESIAN_POINT('',(-29.35,-46.15,4.44053760670065));
#175=CARTESIAN_POINT('',(-29.35,-46.15,4.44053760670065));
#176=CARTESIAN_POINT('',(-29.35,-46.15,4.01561917325309));
#177=CARTESIAN_POINT('',(-29.35,39.68,4.01561917325309));
#178=CARTESIAN_POINT('',(-29.35,-46.15,4.44053760670065));
#179=CARTESIAN_POINT('',(-29.35,39.68,4.44053760670065));
#180=CARTESIAN_POINT('',(-29.35,39.68,4.44053760670065));
#181=CARTESIAN_POINT('',(-29.35,39.68,4.44053760670065));
#182=CARTESIAN_POINT('',(-29.35,39.68,4.01561917325309));
#183=CARTESIAN_POINT('',(-29.35,39.68,4.44053760670065));
#184=CARTESIAN_POINT('',(0.,0.,4.44053760670065));
#185=CARTESIAN_POINT('',(0.,0.,4.01561917325309));
#186=MECHANICAL_DESIGN_GEOMETRIC_PRESENTATION_REPRESENTATION('',(#113),
#187);
#187=(
GEOMETRIC_REPRESENTATION_CONTEXT(3)
GLOBAL_UNCERTAINTY_ASSIGNED_CONTEXT((#188))
GLOBAL_UNIT_ASSIGNED_CONTEXT((#191,#190,#189))
REPRESENTATION_CONTEXT('glass 4.0in','TOP_LEVEL_ASSEMBLY_PART')
);
#188=UNCERTAINTY_MEASURE_WITH_UNIT(LENGTH_MEASURE(0.005),#191,
'DISTANCE_ACCURACY_VALUE','Maximum Tolerance applied to model');
#189=(
NAMED_UNIT(*)
SI_UNIT($,.STERADIAN.)
SOLID_ANGLE_UNIT()
);
#190=(
NAMED_UNIT(*)
PLANE_ANGLE_UNIT()
SI_UNIT($,.RADIAN.)
);
#191=(
LENGTH_UNIT()
NAMED_UNIT(*)
SI_UNIT(.MILLI.,.METRE.)
);
#192=PRODUCT_DEFINITION_SHAPE('','',#193);
#193=PRODUCT_DEFINITION('','',#195,#194);
#194=PRODUCT_DEFINITION_CONTEXT('',#201,'design');
#195=PRODUCT_DEFINITION_FORMATION_WITH_SPECIFIED_SOURCE('','',#197,
 .NOT_KNOWN.);
#196=PRODUCT_RELATED_PRODUCT_CATEGORY('','',(#197));
#197=PRODUCT('glass 4.0in','glass 4.0in','glass 4.0in',(#199));
#198=PRODUCT_CATEGORY('','');
#199=PRODUCT_CONTEXT('',#201,'mechanical');
#200=APPLICATION_PROTOCOL_DEFINITION('international standard',
'automotive_design',2010,#201);
#201=APPLICATION_CONTEXT(
'core data for automotive mechanical design processes');
ENDSEC;
END-ISO-10303-21;
